Vai a Team World Shop
Pagina 1 di 3 123 UltimaUltima
Risultati da 1 a 10 di 21
  1. #1
    FINLEY MOD


    Data Registrazione
    Mar 2007
    Messaggi
    534
    Inserzioni Blog
    19

    Predefinito Spartiti e tablature dei Finley

    Ecco qui la discussione riaperta [:
    Ho cercato di riassumere il contenuto del vecchio topic.. Spero di non aver dimenticato niente!
    Evitiamo spam e postiamo solo cose utili e pertinenti, per rendere più semplice la consultazione del topic.
    Se dovete fare richieste, cercate di farlo ordinatamente.
    Happy music,
    Giuli
    _____________________________________

    Siti utili
    http://xoomer.alice.it/spartitoliamo/finley.htm
    http://www.ultimate-guitar.com/tabs/finley_tabs.htm
    http://www.musicwebitalia.it/accordi_t.asp
    http://www.911tabs.com/bands/f/

    Per batteria
    http://www.911tabs.com/link/?3768586 = Fumo e Cenere (xò devi avere 1 programma ke si kiama Guitar Pro, sennò nn ti fa vedere le tabs...cmq se ce l'hai in fondo alla pagina c'è scritto "Download "Fumo e Cenere" Guitar Pro Tab", clicchi lì, e scarichi la tab...
    http://www.ultimate-guitar.com/tabs/...guitar_pro.htm = Per Sempre...anke qui ci vuole il Guitar Pro...
    http://www.ultimate-guitar.com/tabs/...guitar_pro.htm = Per Sempre...1 altra versione, anke x questa bisogna avere il Guitar Pro...
    Tabs:
    Fumo e Cenere
    pagina 1: http://img211.imageshack.us/img211/6499/pagina1mc6.png
    pagina 2: http://img251.imageshack.us/img251/4160/pagina2mv0.png
    Per Sempre
    pagina 1: http://img178.imageshack.us/img178/4184/pagina1cn4.png
    pagina 2: http://img523.imageshack.us/img523/5984/pagina2gx6.png
    pagina 3: http://img172.imageshack.us/img172/368/pagina3om3.png
    pagina 4: http://img510.imageshack.us/img510/6246/pagina4qw0.png
    pagina 5: http://img204.imageshack.us/img204/7452/pagina5ku8.png
    Altri siti:
    http://www.virtualdrumming.com/batte...rtiti-batteria
    http://www.aliek.com/musica/accordi_...ulati/batteria

    Per basso
    Tabs:
    Fumo e cenere
    pagina 1: http://img252.imageshack.us/img252/3411/pagina1gp3.png
    pagina 2: http://img205.imageshack.us/img205/1310/pagina2kw3.png
    Per Sempre
    pagina 1: http://img259.imageshack.us/img259/2056/pagina1at9.png
    pagina 2: http://img511.imageshack.us/img511/8071/pagina2yn7.png
    pagina 3: http://img267.imageshack.us/img267/5926/pagina3tb6.png

    Tutto E' Possibile
    RE LA SOL LA RE LA SOL LA
    RE LA
    Sette trenta la sveglia suona già
    SOL
    dopo notti di coca alla realtà ,mi risveglio dentro a un
    LA RE LA
    incubo, sembra quasi una follia
    SOL LA
    questa vita non è mia è come un pugno nello stomaco,
    RE SOL RE LA
    guarda il cielo per un attimo e vedrai cambierai
    RE LA
    RIT se lo vuoi tutto è possibile nulla
    SOL LA RE
    è inafferrabile senza un limite, se lo vuoi tu
    LA SOL LA
    potrai vivere un sogno irrealizzabile senza un limite
    RE LA
    Salto in auto è scappo via in un film o
    SOL LA RE
    in una fotografia verso il mondo delle favole, ma
    LA
    una strana melodia da una scossa alla
    SOL LA
    realtà ora è tutta un’altra musica,
    RE SOL RE LA
    guarda il cielo per un attimo e vedrai cambierai
    RE LA
    RIT se lo vuoi tutto è possibile nulla
    SOL LA RE
    è inafferrabile senza un limite, se lo vuoi tu
    LA SOL LA
    potrai vivere un sogno irrealizzabile senza un limite
    RE LA SOL LA RE LA SOL LA
    RE LA
    RIT se lo vuoi tutto è possibile nulla
    SOL LA RE
    è inafferrabile senza un limite, se lo vuoi tu
    LA SOL LA
    potrai vivere un sogno irrealizzabile senza un limite
    LA RE SOL RE
    Senza un limite Senza un limite
    RE SOL RE SOL
    Se lo vuoi (Se lo vuoi) riuscirai (riuscirai)
    RE SOL SOL RE
    Se lo vuoi (Se lo vuoi) senza un limite

    ***

    Intro (chitarra 1)
    e|-----------------------------------------------|
    B|-----------------------------------------------|
    G|-----77777777--77777777--77777777--7777--7--7--|
    D|-----77777777--77777777--77777777--7777--7--7--|X2
    A|-----55555555--44444444--00000000--0000--5--0--|
    E|-------------------------77777777--5555-----5--|
    Intro parte 2 (Chitarra 1)
    e|-----------------------------------------------|
    B|-----------------------------------------------|
    G|-----77777777--77777777--77777777--7777--7--7--|
    D|-----77777777--77777777--77777777--7777--7--7--|X2
    A|-----55555555--44444444--00000000--0000--5--0--|
    E|-------------------------77777777--5555-----5--|
    |Intro parte 2 (Chitarra 2) <---(non so se c'è ma suona bene...)
    e|-----------------------------------------------|
    B|-----10--8--7--5--7--8--10--8--7---------------|
    G|------x--x--x--x--x--x---x--x--x---7-----------|
    D|------7--5--4--2--4--5---7--5--4---x~~~--------|X2
    A|-----------------------------------5-----------|
    E|-----------------------------------------------|
    D5 Bm5
    7 e 30 la sveglia suona già
    G5
    dopo notti di coca e havana club
    A5
    mi risveglio dentro a un incubo...
    D5 Bm5
    Sembra quasi una follia
    G5
    questa vita non è mia
    A5
    è come un pugno nello stomaco...
    D5 G5
    Guarda il cielo per un attimo
    D5 A5
    e vedrai...cambierà...
    D5 A5
    Se lo vuoi...tutto è possibile!
    Bm5 G5
    Nulla inafferrabile...senza un limite.
    D5 A5
    Se lo vuoi...tu potrai vivere
    Bm5 G5
    un sogno irrealizzabile...senza un limite
    Ripetete Intro parte 2 (solamente chitarra 1)
    (D5) (Bm5)
    Salto in macchina e scappo via
    (G5)
    in un film in una fotografia
    (A5)
    verso il mondo delle favole...
    (D5) (Bm5)
    Ma una strana melodia
    (G5)
    da una scossa alla reltà
    ora è tutta un'altra musica!
    D5 G5
    Guarda il cielo per un attimo
    D5 A5
    e vedrai...cambierà...
    D5 A5
    Se lo vuoi...tutto è possibile!
    Bm5 G5
    Nulla inafferrabile...senza un limite.
    D5 A5
    Se lo vuoi...tu potrai vivere
    Bm5 G5
    un sogno irrealizzabile...senza un limite
    Stop!
    Chitarra 1
    e|-----------------------------------------------|
    B|-----------------------------------------------|
    G|-----77777777--77777777--77777777--7777--7--7--|
    D|-----77777777--77777777--77777777--7777--7--7--|X2
    A|-----55555555--44444444--00000000--0000--5--0--|
    E|-------------------------77777777--5555-----5--|
    | .. .. . .. .. . .. .. . ...
    |
    | Chitarra 2
    e|-----------------------------------------------|
    B|-----------------------------------------------|
    G|-----7~~~~~~~~~~~~~~~~~~~~~~~~~~~--9-7-6-------|
    D|-----------------------------------------------|
    A|-----------------------------------------------|X2
    E|-----------------------------------------------|
    Solo (Chitarra 1)
    e|-----------------------------------------------|
    B|-----------------------------------------------|
    G|-----77777777--77777777--77777777--7777--7--7--|
    D|-----77777777--77777777--77777777--7777--7--7--|X4
    A|-----55555555--44444444--00000000--0000--5--0--|
    E|-------------------------77777777--5555-----5--|
    |
    |Solo (Chitarra 2)
    e|-----------------------------------------------|
    B|-----10--8--7--5--7--8--10--8--7---------------|
    G|------x--x--x--x--x--x---x--x--x---7-----------|
    D|------7--5--4--2--4--5---7--5--4---x-----------|X4
    A|-----------------------------------5-----------|
    E|-----------------------------------------------|
    Outro Fine
    e|--------------------| e|----|
    B|--10--8--7--8--7--8-| B|-7--|
    G|--------------------| G|----|
    D|--------------------|X8 D|----|
    A|--------------------| A|----|
    E|--------------------| E|----|

    Run Away
    FA# SIb DO# SIb RE# FA FA# DO#
    FA# SIb DO# SIb RE# DO# SI
    FA# SI
    If your car is broken down
    RE# DO#
    Leave that place, don't cry aloud
    FA# SI
    This crime is gonna hurt
    DO#
    Your self-esteem
    FA# SI
    Someone called the FBI
    RE# DO#
    This time they want to find you
    FA#
    I know why
    SI DO#
    And you're sure you're guilty now
    FA# DO#
    Today you're falling down
    SI SIb
    And there's nothing left to lose
    FA# DO#
    Here's only one last thing
    SOL# SIb SI DO#
    you should have done
    FA# DO#
    Run away, just run away
    FA#
    Hope has left this creepy town
    SI DO#
    There's no time, the sun goes down
    FA# DO#
    Run away just run away
    RE#
    From their guns and from their mouths
    SI DO#
    Three bad words say "no way out"
    And if you…
    FA# SI
    ...If you find a place to hide
    RE# DO#
    All the sins you have got inside,
    FA# SI
    That's not enough to clean your heart
    FA# SI
    Too many years without a friend,
    RE# DO#
    Without a family, without
    FA# SI
    The consciousness of losing
    DO#
    what you have
    FA# DO#
    Today you're falling down
    SI SIb
    And there's nothing left to lose
    FA# DO#
    Here's only one last thing
    SOL# SIb SI DO#
    you should have doooone have done
    FA# DO#
    Run away, just run away
    FA#
    Hope has left this creepy town
    SI DO#
    There's no time, the sun goes down
    FA# DO#
    Run away just run away
    RE#
    From their guns and from their mouths
    SI DO#
    Three bad words say "no way out"
    FA#
    And all you've got
    FA RE#
    Is an enormous regret
    SI FA#
    You're not a person that understands
    FA RE# DO#
    I bet you'll be wrong once again
    Run away just run away
    Hope has left this creepy town
    There's no time the sun goes down
    FA# DO#
    Run away, just run away
    FA#
    Hope has left this creepy town
    SI DO#
    There's no time, the sun goes down
    FA# DO#
    Run away, just run away
    FA# DO#
    If you search new solutions
    SI DO#
    But you are under-pressure
    SI DO#
    My advice not so precious:
    FA#
    Run away!

    Scegli Me - In My Arms Again
    |Mi.a ----4---4--4--|
    |Si ---4--4---4---|
    |Sol --5-----------| Intro/Verse Arpeggio
    |Re --------------|
    |La --------------|
    |Mi --------------|
    |Mi.a ----4--7-|
    |Si ---4-----|
    |Sol --5 -----| Intro Continue Arpeggio
    |Re ---------|
    |La ---------|
    |Mi ---------|
    CB CB1
    |Mi.a --4----- |Mi.a --3------|
    |Si --4----- |Si --4------|
    |Sol --5----- |Sol --5------| Rit- Chorsus
    |Re --5----- |Re --5------|
    |La -------- |La ---------|
    |Mi -------- |Mi ---------|

  2. #2
    FINLEY MOD


    Data Registrazione
    Mar 2007
    Messaggi
    534
    Inserzioni Blog
    19

    Predefinito Riferimento: Spartiti e tablature dei Finley

    Fumo E Cenere
    Re-
    Strade deserte Note distorte
    Sib
    Componi per lei
    Fa Do
    Si è fatto buio già
    Re-
    Ore seduto su un marciapiede
    Sib
    Sotto un lampione
    Fa Do
    Sai che lei non tornerà
    Re- Sib
    E' un lamento continuo
    Fa Do
    Di frasi che ormai
    Re- Sib
    Sono andate, sparite
    Fa Do
    Mai più sentirai
    Re- Sib
    Ti aspettavi di udire
    Fa Do
    Sei il solo per me
    Re- Sib
    Metti l'anima in pace
    Fa Do
    Quei giorni son già
    Re- Sib
    Fumo e cenere
    Fa Do
    Fumo e cenere
    Re-
    La nebbia sul viso nasconde il sorriso
    Sib
    Di quei giorni in cui
    Fa Do
    Lei era accanto a te
    Re-
    Riassaggi i momenti
    Sib
    Scorrendo i messaggi
    Fa Do
    Ma solo quelli più dolci
    Sib
    Non li cancellerai
    Re- Sib Fa
    Il tuo mondo Sta andando a ******e
    Do
    Oramai
    Re- Sib
    Puoi reagire ma forse
    Fa Do
    Non è ciò che vuoi
    Re- Sib
    Preferisci esser vittima
    Fa Do
    Non guarirai
    Re- Sib
    Non mollare è un consiglio
    Fa Do
    O ti ridurrai
    Re- Sib
    Fumo e cenere
    Fa Do
    Fumo e cenere

    ***

    Intro/Verse (acoustic)
    D
    e |----------------|----------------|----------------|----------------|
    B |----5---5---5---|--6--6--6--6--6-|----5---5---5---|--6--6--6--6--6-|
    G |----------------|----------------|----------------|----------------|
    D |----------------|----------------|----------------|----------------|
    A |----5---5---5---|--5--5--5--5--5-|----5---5---5---|--5--5--5--5--5-|
    E |----------------|----------------|----------------|----------------|
    A#
    e |----------------|----------------|----------------|----------------|
    B |----1---1---1---|--3--3--3--3--3-|----1---1---1---|--3--3--3--3--3-|
    G |----------------|----------------|----------------|----------------|
    D |----------------|----------------|----------------|----------------|
    A |----1---1---1---|--1--1--1--1--1-|----1---1---1---|--1--1--1--1--1-|
    E |----------------|----------------|----------------|----------------|
    F C
    e |----------------|----------------|----------------|----------------|
    B |----1---1---1---|--3--3--3--3--3-|----3---3---3---|--5--5--5--5--5-|
    G |----------------|----------------|----------------|----------------|
    D |----------------|----------------|----------------|----------------|
    A |----------------|----------------|----3---3---3---|--3--3--3--3--3-|
    E |----1---1---1---|--1--1--1--1--1-|----------------|----------------|
    X 2
    D
    e |----------------|----------------|----------------|----------------|
    B |----5---5---5---|--6--6--6--6--6-|----5---5---5---|--6--6--6--6--6-|
    G |----------------|----------------|----------------|----------------|
    D |----------------|----------------|----------------|----------------|
    A |----5---5---5---|--5--5--5--5--5-|----5---5---5---|--5--5--5--5--5-|
    E |----------------|----------------|----------------|----------------|
    A#
    e |----------------|----------------|----------------|----------------|
    B |----1---1---1---|--3--3--3--3--3-|----1---1---1---|--3--3--3--3--3-|
    G |----------------|----------------|----------------|----------------|
    D |----------------|----------------|----------------|----------------|
    A |----1---1---1---|--1--1--1--1--1-|----1---1---1---|--1--1--1--1--1-|
    E |----------------|----------------|----------------|----------------|
    F C
    e |----------------|----------------|----------------|----------------|
    B |----1---1---1---|--3--3--3--3--3-|----3---3---3---|--5--5--5--5--5-|
    G |----------------|----------------|----------------|----------------|
    D |----------------|----------------|----------------|----------------|
    A |----------------|----------------|----3---3---3---|--3--3--3--3--3-|
    E |----1---1---1---|--1--1--1--1--1-|----------------|----------------|
    C
    e |----------------|----------------|
    B |----3---3---3---|--5--5--5--5--5-|
    G |----------------|----------------|
    D |----------------|----------------|
    A |----3---3---3---|--3--3--3--3--3-|
    E |----------------|----------------|
    Chorus (acoustic)
    REm – 1 - REm – 1 - FA - 1 - DO - 0 -
    - 3 - - 3 - - 1 - - 1 -
    - 2 - - 2 - - 2 - - 0 -
    - 0 - - 0 - - 3 - - 2 -
    - 0 - - 0 - - 3 - - 3 -
    - 0 - - 0 - - 1 - - 0 - X 5
    Verse (acoustic)
    D
    e |----------------|----------------|----------------|----------------|
    B |----5---5---5---|--6--6--6--6--6-|----5---5---5---|--6--6--6--6--6-|
    G |----------------|----------------|----------------|----------------|
    D |----------------|----------------|----------------|----------------|
    A |----5---5---5---|--5--5--5--5--5-|----5---5---5---|--5--5--5--5--5-|
    E |----------------|----------------|----------------|----------------|
    A#
    e |----------------|----------------|----------------|----------------|
    B |----1---1---1---|--3--3--3--3--3-|----1---1---1---|--3--3--3--3--3-|
    G |----------------|----------------|----------------|----------------|
    D |----------------|----------------|----------------|----------------|
    A |----1---1---1---|--1--1--1--1--1-|----1---1---1---|--1--1--1--1--1-|
    E |----------------|----------------|----------------|----------------|
    F C
    e |----------------|----------------|----------------|----------------|
    B |----1---1---1---|--3--3--3--3--3-|----3---3---3---|--5--5--5--5--5-|
    G |----------------|----------------|----------------|----------------|
    D |----------------|----------------|----------------|----------------|
    A |----------------|----------------|----3---3---3---|--3--3--3--3--3-|
    E |----1---1---1---|--1--1--1--1--1-|----------------|----------------|
    D
    e |----------------|----------------|----------------|----------------|
    B |----5---5---5---|--6--6--6--6--6-|----5---5---5---|--6--6--6--6--6-|
    G |----------------|----------------|----------------|----------------|
    D |----------------|----------------|----------------|----------------|
    A |----5---5---5---|--5--5--5--5--5-|----5---5---5---|--5--5--5--5--5-|
    E |----------------|----------------|----------------|----------------|
    A#
    e |----------------|----------------|----------------|----------------|
    B |----1---1---1---|--3--3--3--3--3-|----1---1---1---|--3--3--3--3--3-|
    G |----------------|----------------|----------------|----------------|
    D |----------------|----------------|----------------|----------------|
    A |----1---1---1---|--1--1--1--1--1-|----1---1---1---|--1--1--1--1--1-|
    E |----------------|----------------|----------------|----------------|
    F C
    e |----------------|----------------|----------------|----------------|
    B |----1---1---1---|--3--3--3--3--3-|----3---3---3---|--5--5--5--5--5-|
    G |----------------|----------------|----------------|----------------|
    D |----------------|----------------|----------------|----------------|
    A |----------------|----------------|----3---3---3---|--3--3--3--3--3-|
    E |----1---1---1---|--1--1--1--1--1-|----------------|----------------|
    A#
    e |----------------|----------------|----------------|----------------|
    B |----1---1---1---|--3--3--3--3--3-|----1---1---1---|--3--3--3--3--3-|
    G |----------------|----------------|----------------|----------------|
    D |----------------|----------------|----------------|----------------|
    A |----1---1---1---|--1--1--1--1--1-|----1---1---1---|--1--1--1--1--1-|
    E |----------------|----------------|----------------|----------------|
    Chorus
    1st GUITAR (acoustic)
    REm – 1 - REm – 1 - FA - 1 - DO - 0 -
    - 3 - - 3 - - 1 - - 1 -
    - 2 - - 2 - - 2 - - 0 -
    - 0 - - 0 - - 3 - - 2 -
    - 0 - - 0 - - 3 - - 3 -
    - 0 - - 0 - - 1 - - 0 - X6
    2nd GUITAR (dist.)
    REm – x - REm – x - FA - x - DO - x -
    - 6 - - 6 - - x - - x -
    - 7 - - 7 - - x - - 5 -
    - 7 - - 7 - - 3 - - 5 -
    - 5 - - 5 - - 3 - - 3 -
    - x - - x - - 1 - - x - X4

    ***

  3. #3
    FINLEY MOD


    Data Registrazione
    Mar 2007
    Messaggi
    534
    Inserzioni Blog
    19

    Predefinito Riferimento: Spartiti e tablature dei Finley

    Fumo e cenere è semplicissima.. io ho il tabulato e potete trovalo su questo link--> http://www.ultimate-guitar.com/tabs/...cenere_tab.htm
    ma se volete ve li spiego io... mmm... allora...
    x cominciare sul tabulato c'è scritto
    e |----------------|----------------|----------------|----------------|
    B |----5---5---5---|--6--6--6--6--6-|----5---5---5---|--6--6--6--6--6-|
    G |----------------|----------------|----------------|----------------|
    D |----------------|----------------|----------------|----------------|
    A |----5---5---5---|--5--5--5--5--5-|----5---5---5---|--5--5--5--5--5-|
    E |----------------|----------------|----------------|----------------|
    bene... questa è il primo pezzettino si può dire...
    allora
    e= corrisponde a mi cantino (1° corda verso il basso!)
    B= corrisponde al si (2° corda )
    G= sol (3° corda)
    D= re (4° corda!)
    A= la (5° corda)
    E= mi basso (6° corda!)
    quindi sul tabulato guardate e cioè il mi ed'è libero...
    e |----------------|----------------|----------------|----------------|
    B= si è invece occupato giusto??? quindi andate sul manico della chitarra sul 5° e 6° tasto della 2 corda (li mettete insieme con l'indice e il medio!)
    B |----5---5---5---|--6--6--6--6--6-|----5---5---5---|--6--6--6--6--6-|
    poi ci sn G ed A ovvero Sol e Re che sn liberi
    G |----------------|----------------|----------------|----------------|
    D |----------------|----------------|----------------|----------------|
    A= La che si mantiene sul 5 tasto della quinta corda, la 5° corda si suona insieme alla prima ma ricordate di spostare la 2 corda dal quinto tasto al 6 dopo la prima battuta...
    fatto questo avrete la parte iniziale di fumo e cenere!
    e questo va x le lunghe... .quindi ora potete leggere il continuo dal tabulato!
    poi... dopo fatto questo, nella parte del ritornello vengono gli accordi
    che sn REm x due volte fa(attenzione che è col barrè) e do questi tre accordi ripetuti x 5 volte...
    sul tabulato spiega come posizionare le dita x avere gli accordi, parte dalla prima corda
    REm – 1 - REm – 1 - FA - 1 - DO - 0 -
    - 3 - - 3 - - 1 - - 1 -
    - 2 - - 2 - - 2 - - 0 -
    - 0 - - 0 - - 3 - - 2 -
    - 0 - - 0 - - 3 - - 3 -
    - 0 - - 0 - - 1 - - 0 -
    i numeri che vedete sono i tasti tipo REm 1 corda 1 tasto, 2 corda 3 tasto, 3 corda secondo tasto... così x fa che è col barrè e quindi bisogna oggiare tutto l'indice sulle sei corde della chitarra sul primo tasto poi aggiungere la 3 corda col 2 tasto, la quarta sul terzo tasto e anke la quinta sul terzo!
    il do è sempliciximo!
    dopo si rifanno le note a vuoto, quelle segnate e la canzone è finita!

    Diventerai Una Star
    LA#
    025613
    RE#
    Numero di una ******a che
    SOL FA RE#
    Dice di aver risposte ai miei perché
    LA#
    Conosce cose che non so
    RE#
    Vede un passato che non ho
    SOL FA RE#
    Prevede un jackpot ricco al casinò
    FA RE#
    Una voce grida dentro me
    LA#
    "No! No! No! No!"
    FA RE# FA
    Ma con la sua sfera vuole dirmi che
    LA#
    Diventerai una star (Vedrai)
    FA
    Una celebrità (Sarai)
    SOL FA
    La gente intorno a te
    SOL FA
    Potrà toccare un re
    LA#
    Diventerai una star (Vedrai)
    FA
    Una celebrità (Potrai)
    SOL
    Trasformar ciò che ora sogni
    Re |---9--8-----|
    La |---7--6--9--|
    Mi |---------7--|
    In una realtà!
    LA#
    Che storia incredibile
    RE# SOL FA RE#
    E' un' onda che mi trascina via
    FA RE#
    Sento ancora voci dentro me
    LA#
    "No! No! No! No!"
    FA RE# FA
    Basta la sua sfera per distruggerle
    (LA#)
    Ogni tua verità non mi va...
    Mi|--------------------|
    Si|--------2-----------|
    Sol|------4-----4---4--|
    Re|----4---------4----|
    La|--2-----------------|
    Mi|--------------------|
    LA#
    Ogni tua verità non mi va
    LA# RE# SOL RE#
    Giochi coi miei sogni dimmi perché
    LA# RE# SOL RE#
    Straccio quel numero e senza di te
    LA#
    Diventerò una star (Vedrai)
    FA
    E con semplicità (Lo sai)
    SOL FA
    La gente intorno a te
    SOL FA
    Potrà capire che
    LA#
    Diventerò una star (Go!Go!Go!)
    FA
    E con semplicità (Go!Go!Go!)
    SOL
    Io vivrò il più grande sogno
    Re |---9--8-----|
    La |---7--6--9--|
    Mi |-----------7-|
    La musica!

    Addio
    Intro:
    G|-8-8-8-8-8-8-8-8-8-|-4-4-4-4-4-4-4-4-4-|-------------------|-6-6-6-6-6-6-6-6-|
    D|-8-8-8-8-8-8-8-8-8-|-4-4-4-4-4-4-4-4-4-|-4-4-4-4-4-4-4-4-4-|-6-6-6-6-6-6-6-6-|
    A|-6-6-6-6-6-6-6-6-6-|-2-2-2-2-2-2-2-2-2-|-4-4-4-4-4-4-4-4-4-|-4-4-4-4-4-4-4-4-|
    E|-------------------|-------------------|-2-2-2-2-2-2-2-2-2-|-----------------|
    Ebm B
    Non potrò mai smettere
    F#
    Di pensare a quella sera
    C# Ebm
    Di tanti anni fa
    B
    Quando ancora voi per me
    F#
    Non avevate scelto un nome
    C# Ebm
    Ed ora son qua
    B F#
    Di fronte a queste bugie
    C# Ebm
    E a quegli occhi lucidi
    B F#
    Bagnati da colpe che
    C# Ebm
    Feriscono solo me
    B F#
    Non è facile per me ma sento che
    C# Ebm
    (Questo è) è un addio
    B F#
    Non è facile per me ma sento che
    C# Ebm
    (Questo è) è il mio addio
    Guitar 1:
    G|-8-8-8-8-8-8-8-8-8-|-4-4-4-4-4-4-4-4-4-|-------------------|-6-6-6-6-6-6-6-6-|
    D|-8-8-8-8-8-8-8-8-8-|-4-4-4-4-4-4-4-4-4-|-4-4-4-4-4-4-4-4-4-|-6-6-6-6-6-6-6-6-|
    A|-6-6-6-6-6-6-6-6-6-|-2-2-2-2-2-2-2-2-2-|-4-4-4-4-4-4-4-4-4-|-4-4-4-4-4-4-4-4-|
    E|-------------------|-------------------|-2-2-2-2-2-2-2-2-2-|-----------------|
    Guitar 2:
    G|-10-------11-------|-10-------11-------|-10-------11-------|-10-------11-----|
    Ebm B
    Grazie a tutti quelli che
    F#
    Hanno reso un po' più dolci
    C# Ebm
    Le difficoltà
    B
    Di un ragazzo come me
    F#
    Cosi solo e abbandonato
    C# Ebm
    E senza pietà
    B F#
    Di fronte a queste bugie
    C# Ebm
    E a quegli occhi lucidi
    B F#
    Io so camminare ormai
    C# Ebm
    So farlo senza di voi
    B F#
    Non è facile per me ma sento che
    C# Ebm
    (Questo è) è un addio
    B F#
    Non è facile per me ma sento che
    C# Ebm
    (Questo è) è il mio addio
    B F#
    Non potrò piangere
    C# Ebm
    non potrò fingere
    B F#
    Sento che questo è
    C#
    è un addio
    Ebm
    il mio addio
    (With arpeggio)
    Ebm – B – F# - C#

    Ad Occhi Chiusi
    INTRO:
    |---|-----| ---|--------------|
    |-8-|-----| -8-|--------------|
    |-8-|-----| -8-|---0------0---|
    |---|-----| ---|--------------|
    |-6-|-5-6-| -6-|-6---6--5---5-|
    |---|-----| ---|--------------|
    VERSE:
    [Da te mi nasconderò..]
    |---|-----| ---|--------------|
    |-8-|-----| -8-|--------------|
    |-8-|-----| -8-|---0------0---|
    |---|-----| ---|--------------|
    |-6-|-5-6-| -6-|-6---6--5---5-|
    |---|-----| ---|--------------|
    [Sarò invisibile..]
    |------------|
    |------------|
    |----5-----8-|
    |-3--5--6--8-|
    |-3--3--6--6-|
    |-1-----4----|
    CHORUS:
    [Disegnerò ad occhi chiusi..]
    |------------| |------|
    |------------| |------|
    |----5-----8-| |------|
    |-3--5--6--8-| |-3--4-|
    |-3--3--6--6-| |-3--4-|
    |-1-----4----| x 2 |-1--6-|
    PRE VERSE:
    |---|--------------|
    |-8-|--------------|
    |-8-|---0------0---|
    |---|--------------|
    |-6-|-6---6--5---5-|
    |---|--------------|
    VERSE:
    [Fin quando nn ti sveglierai..]
    |---|-----| ---|--------------|
    |-8-|-----| -8-|--------------|
    |-8-|-----| -8-|---0------0---|
    |---|-----| ---|--------------|
    |-6-|-5-6-| -6-|-6---6--5---5-|
    |---|-----| ---|--------------|
    [Sembra impossibile..]
    |------------|
    |------------|
    |----5-----8-|
    |-3--5--6--8-|
    |-3--3--6--6-|
    |-1-----4----|
    [Disegnerò ad occhi chiusi..]
    |------------| |------|
    |------------| |------|
    |----5-----8-| |------|
    |-3--5--6--8-| |-3--4-|
    |-3--3--6--6-| |-3--4-|
    |-1-----4----| x 2 |-1--6-|
    [2.35] END:
    |-------------| |---|
    |-------------| |---|
    |-8-----------| |-8-|
    |-8--8--10--6-| |-8-|
    |-6--8--10--6-| |-6-|
    |----6--8---4-| x5 |---|

  4. #4
    FINLEY MOD


    Data Registrazione
    Mar 2007
    Messaggi
    534
    Inserzioni Blog
    19

    Predefinito Riferimento: Spartiti e tablature dei Finley

    Niente Da Perdere
    INTRO
    e|--------------------------------------------------------------------------|
    B|---5---8------10---6------6---5------6---1------1---8------10---6------11-|
    G|--------------------------------------------------------------------------|
    D|--------------------------------------------------------------------------|
    A|--------------------------------------------------------------------------|
    E|--------------------------------------------------------------------------|
    e|--------------------------------------------------------------------------|
    B|---10---6------6---11---10---6--------------------------------------------|
    G|--------------------------------------------------------------------------|
    D|--------------------------------------------------------------------------|
    A|--------------------------------------------------------------------------|
    E|--------------------------------------------------------------------------|
    STROFA 1
    RE#
    Non so come ma da un po'
    DO
    sento la necessità
    LA# SOL#
    di sfogare la mia rabbia in queste pagine
    RE#
    indovina come mai
    DO
    ce l'ho proprio su con te
    LA# SOL#
    sulle tue frequenze sembro non resistere
    SOL#
    non è mica semplice
    VERSO 1
    RE#
    sono stato troppo tempo
    SOL#
    zitto ed immmobile
    LA#
    ora sono polvere
    SOL# (stoppato)
    pronto per esplodere
    RITORNELLO
    RE# DO
    non ho niente da perdere
    LA#
    continuo a urlare
    SOL#
    e non potrai resistere
    RE# DO
    far finta che io non sia qui
    LA#
    è inutile
    SOL#
    tu non potrai più fingere
    Gooooooooooooo!!!
    ripetere INTRO
    STROFA 2
    RE#
    Sei sicuro di star bene
    DO
    sembri come allergico
    LA# SOL#
    al mio suono un po' più elettrico del solito
    RE#
    stai provando a farmi fuori
    DO
    tanto in giro non si sà
    LA# SOL#
    che io riesco a stare a casa anche senza di te
    SOL#
    ora è un'abitudine
    RIPETERE VERSO E RITORNELLO
    RE#
    Non riuscirai più ad aver ricordi
    DO
    e a privarmi della voglia
    LA#
    che hai rinchiuso in un cassetto
    SOL#
    prima di buttar la chiave
    RE#
    ti concedo un po' di tempo
    DO LA#
    ma alla fine non potrai ignorare...
    SOL#
    Keeeeeeeeeeeeeeeee!!!
    RE# (arpeggio)DO (arpeggio)
    Non ho niente da perdere
    LA# (arpeggio)
    continuo a urlare
    SOL#
    e non potrai più fingere
    SOL#
    non potrai più fingere
    RIPETERE RITORNELLO
    Non potrai più fingere con meeeeeeeeee!
    Fine
    e|-------|
    B|-------|
    G|---8---|
    D|---8---|
    A|---6---|
    E|-------|

    Domani per basso
    INTRO:
    |------------|------------|---|
    |------------|------------|---|
    |----4-----5-|----4-----5-|---|
    |-5-----2----|-5-----2----|-5-|
    VERSO:
    [Leggere i saluti..] [Ma stasera non c'è...]
    [Dopo C'e SOLO la chitarra..]
    |---------------------| |---|---|---|---|
    |---------------------| |---|---|---|---|
    |---------------------| |---|---|-5-|---|
    |-5--5-4--4-2--2-0--7-| |-2-|-0-|---|-5-|
    RITORNELLO: PRE VERSO:
    [Domani ripartiròòòò...]
    |------------|------------| |------------|---|
    |------------|------------| |------------|---|
    |----4-----5-|----4-----5-| |----4-----5-|---|
    |-5-----2----|-5-----2----| |-5-----2----|-5-|
    VERSO:
    [Forse a volte..] [Ma nn chiedo il xkè..]
    [Come sopra..]
    |------------------| |---|---|---|---| ---|---|---|---|
    |------------------| |---|---|---|---| ---|---|---|---|
    |------------------| |---|---|-5-|---| ---|---|-5-|---|
    |-9--5--7--5--7--0-| |-2-|-0-|---|-5-| -2-|-0-|---|-5-|
    RITORNELLO:
    [Domani ripartiròòòò...]
    |------------|------------|
    |------------|------------|
    |----4-----5-|----4-----5-|
    |-5-----2----|-5-----2----|
    INTERLUDE:
    |---------------|--------------|----------------------|
    |---------------|--------------|----------------------|
    |---------------|--------------|----------------------|
    |-5-/-12--12/-5-|-4--2--0--7-5-|-5/12--12-/5--4--2--0-|
    |---|---|---|---| |---|---|
    |---|---|---|---| |---|---|
    |---|---|-5-|---| |---|---|
    |-2-|-0-|---|-5-| x3 |-2-|-0-|
    RITORNELLO: FINE:
    [Domani ripartiròòòò...]
    |------------|------------|-------------|---|
    |------------|------------|-------------|---|
    |----4-----5-|----4-----5-|-----4-----5-|---|
    |-5-----2----|-5-----2----|-5------2----|-5-|

    Ricordi
    DO FA
    Sarà il tempo a dire che
    DO FA
    stai benissimo così
    DO FA
    certi sbagli fanno crescere,
    [non fanno male]
    DO FA
    Pochi giorni e tutto tornerà
    [normale]
    LA FA
    ma non svaniranno mai
    DO RE DO LAb
    resteranno sempre i tuoi
    DO
    ricordi
    LA
    di un anno
    FA
    momenti che lasciano
    DO SOL
    un sorriso
    DO FA
    ricordi...
    DO FA
    Le risate tra di noi
    DO FA
    mille discussioni e istanti
    LA
    [di follia]
    FA
    No, non svaniranno mai
    LA FA
    resteranno sempre i tuoi,
    [soltanto tuoi]
    DO
    ricordi
    LA
    di un anno
    FA
    momenti che lasciano
    DO SOL
    un sorriso ancora in più
    DO
    Ricordi
    LA
    bellissimi
    FA
    Pensieri e sensazioni che
    DO SOL
    ti danno
    ricordi...
    LA /FA/DO/SOL/SOL#
    LA/FA/SOL
    DO
    Ricordi
    LA
    di un anno
    FA
    momenti che ti lasciano
    DO SOL
    un sorriso ancora in più
    DO
    ricordi
    LA
    bellissimi
    FA
    pensieri e sensazioni che
    DO SOL
    ti danno
    DO/FA
    ricordi....
    DO/FA/DO
    ricordi....

  5. #5
    FINLEY MOD


    Data Registrazione
    Mar 2007
    Messaggi
    534
    Inserzioni Blog
    19

    Predefinito Riferimento: Spartiti e tablature dei Finley

    Questo Sono Io
    Sol Re Mi- Do Sol Re Mi- Do
    Sol Re Mi- Do
    Vivo nel disordine in un’oasi di tranquillità non c’è terremoto che mi dia preoccupazione
    Sol Re Mi- Do
    Spesso invece fobico cado in crisi di panico alla prima scossa soffro già di ipertensione
    Mi- Do Sol Re Mib Mi- Do Sol Do
    Prendimi così oppure lascia perdere ie ie ie
    Sol Re Mi- Do Sol Re Mi- Do
    Sono pazzo da rinchiudere e queste sono le mie regole
    Sol Re Mi- Do Sol Re Mi- Do
    faccio sempre e solo a modo mio se non ti è chiaro questo sono io
    Sol Re Mi- Do
    Sol Re Mi- Do
    ***** c’hai da ridere? la mia pazienza ha un limite come una tempesta su di te perdo il controllo
    Sol Re Mi- Do
    Poi divento fragile un tipo vulnerabile davanti a quella cosa che mi dà mi dà alla testa
    Mi- Do Sol Re Mib Mi- Do Sol Do
    Prendimi così oppure lascia perdere ie ie ie
    Sol Re Mi- Do Sol Re Mi- Do
    Sono pazzo da rinchiudere e queste sono le mie regole
    Sol Re Mi- Do Sol Re Mi- Do
    faccio sempre e solo a modo mio se non ti è chiaro questo sono io
    Mi- Do Sol Re
    Tante facce si nascondono dietro alla maschera che porto su di me su di me su di me ie ie ie
    Sol Re Mi- Do Sol Re Mi- Do
    Sono pazzo da rinchiudere e queste sono le mie regole
    Sol Re Mi- Do Sol Re Mi- Do Sol
    faccio sempre e solo a modo mio se non ti è chiaro questo sono, questo sono io

    Scegli Me
    SOL# FA-
    Quasi blu metallici
    DO#
    Quasi come elettrici
    Quegli occhi che
    RE# RE#7
    Ricordo anche se
    SOL#
    Non li ho visti mai
    SOL# FA-
    Forse solo dentro ai miei
    DO#
    Sogni che forse dovrei
    Spiegarti se
    RE# RE#7
    Non fosse che tu
    SOL#
    Non ci crederai
    SOL# FA-
    Perché nemmeno io
    DO#
    Riesco a credere che un Dio
    Si sia un po' distratto
    RE# RE#7
    Perdendo un angelo
    SOL#
    Davanti a me
    SOL# FA-
    Ma ormai già che sei qui
    DO#
    Ma ormai già che è così
    RE#
    Non ritornare a casa
    RE#7 SOL#
    O almeno portami con te
    Scegli me...
    SOL# FA-
    Quasi blu metallici
    DO#
    Quasi come elettrici
    Quegli occhi che
    RE# RE#7
    Ricordo e forse
    SOL#
    Non rivedrò mai
    SOL# FA-
    Ma non volare via
    DO#
    Ti prego, cambia idea
    RE#
    Non ritornare a casa
    RE#7 SOL#
    O almeno portami con te
    Scegli me...
    SOL# FA-
    Tu, dal cielo un angelo
    DO#
    Ascolta il mio respiro
    RE#
    E scegli me...
    SOL# FA-
    Mai, nemmeno un attimo
    DO#
    Ti pentirai se adesso
    RE#
    Scegli me...
    SOL# FA-
    Stai sentendo il battito
    DO#
    Di un cuore che ti chiede
    RE#
    Scegli me
    SOL#
    Scegli me
    FA-
    Scegli me
    DO#
    Scegli me
    RE# SOL#
    Scegli me
    Ultima modifica di *Giuli*; 18-06-2008 alle 11:36

  6. #6
    FINLEY & T-SURFER MOD


    Data Registrazione
    Apr 2007
    Messaggi
    831
    Inserzioni Blog
    18

    Predefinito Re: Spartiti e tablature dei Finley

    Ricordi (flauto traverso):

    Introduzione
    Sol do sol re mi do sol … sol do sol re mi do sol … do mi do fa mi do fa re mi do fa re mi do fa

    Sarà il tempo a dire che…
    Sib sib sib fa fa sib sib

    Stai benissimo così…
    Sib sib sib fa fa re re#

    Certi sbagli fanno crescere…non fanno male…
    Sib sib sib fa fa fa re re sib sib re re sib do

    Pochi giorni e tutto tornerà normale…
    Sib sib sib fa fa re re# do fa sib do

    Ma non svaniranno mai…
    Sib sib sib fa fa sib sib

    Resteranno sempre i tuoi…
    Sib sib sib fa fa sib sib

    Ricordi…
    Sib do re

    Di un anno…
    Sib do re

    Momenti che ti lasciano un sorriso…
    Re fa sib sib re fa sib sib sib do re do sib

    Ricordi… mmm
    Sib do sib sib la fa

    Le risate tra di noi…
    Sib sib sib fa fa re re#

    Mille discussioni e istanti di follia…
    Sib sib sib fa fa sib sib sib do re sib la sib la sol

    No non svaniranno mai
    Sib sib sib fa fa sib sib sol fa sol fa

    Resteranno sempre i tuoi… soltanto tuoi
    Sib sib sib fa fa sib sib sib do re sib

    Ricordi…
    Sib do re

    Di un anno…
    Sib do re

    Momenti che ti lasciano un sorriso ancora in più…
    Re fa sib sib re fa sib sib sib do re do sib


    Ricordi…
    Sib do sib

    Bellissimi…
    Sib la fa fa

    Pensieri e sensazioni che ti dannooo…
    Re fa sib sib re fa sib sib sib do re do sib

    Ricordi…
    Sib do sib

    Do do do do do do do do do sib la
    Do do do do do do do do do sib la
    Do do do do do do do do do sib la la sol sib la fa

    Ricordi…


    Di un annoooo…
    Sib sol# sol re re#

    Momenti che ti lasciano un sorriso ancora in più…
    Re fa sib sib re fa sib sib sib do re do sib

    Ricordi…
    Sib do sib

    Bellissimi…
    Sib la fa fa

    Pensieri e sensazioni che ti dannooo…
    Re fa sib sib re fa sib sib sib do re do sib

    Ricordi…
    Sib do sib

    Assolo di Ricordi:
    E|------15------15------15--------15----15---13---12-------|
    B|--13------13------13------13-----------------------------|
    G|---------------------------------------------------------|
    D|---------------------------------------------------------|
    A|---------------------------------------------------------|
    E|---------------------------------------------------------|

    E|---12---13---12---15---12---13---12---15---15---13---12--|
    B|---------------------------------------------------------|
    G|---------------------------------------------------------|
    D|---------------------------------------------------------|
    A|---------------------------------------------------------|
    E|---------------------------------------------------------|

    E|------15------15------15--------15----15---13---12-------|
    B|--13------13------13------13-----------------------------|
    G|---------------------------------------------------------|
    D|---------------------------------------------------------|
    A|---------------------------------------------------------|
    E|---------------------------------------------------------|

    E|--13--12~---13--12---------------------------------------|
    B|---------------------13\---------------------------------|
    G|---------------------------------------------------------|
    D|---------------------------------------------------------|
    A|---------------------------------------------------------|
    E|---------------------------------------------------------|

    Ricordi (pianoforte)

    Introduzione
    Sol do sol re mi do sol … sol do sol re mi do sol … do mi do fa mi do fa re mi do fa re mi do fa

    Sarà il tempo a dire che…
    Sib sib sib fa fa sib sib

    Stai benissimo così…
    Sib sib sib fa fa re re#

    Certi sbagli fanno crescere…non fanno male…
    Sib sib sib fa fa fa re re sib sib re re sib do

    Pochi giorni e tutto tornerà normale…
    Sib sib sib fa fa re re# do fa sib do

    Ma non svaniranno mai…
    Sib sib sib fa fa sib sib

    Resteranno sempre i tuoi…
    Sib sib sib fa fa sib sib

    Ricordi…
    Sib do re

    Di un anno…
    Sib do re

    Momenti che ti lasciano un sorriso…
    Re fa sib sib re fa sib sib sib do re do sib

    Ricordi… mmm
    Sib do sib sib la fa

    Le risate tra di noi…
    Sib sib sib fa fa re re#

    Mille discussioni e istanti di follia…
    Sib sib sib fa fa sib sib sib do re sib la sib la sol

    No non svaniranno mai
    Sib sib sib fa fa sib sib sol fa sol fa

    Resteranno sempre i tuoi… soltanto tuoi
    Sib sib sib fa fa sib sib sib do re sib

    Ricordi…
    Sib do re

    Di un anno…
    Sib do re

    Momenti che ti lasciano un sorriso ancora in più…
    Re fa sib sib re fa sib sib sib do re do sib


    Ricordi…
    Sib do sib

    Bellissimi…
    Sib la fa fa

    Pensieri e sensazioni che ti dannooo…
    Re fa sib sib re fa sib sib sib do re do sib

    Ricordi…
    Sib do sib

    Do do do do do do do do do sib la
    Do do do do do do do do do sib la
    Do do do do do do do do do sib la la sol sib la fa

    Ricordi…


    Di un annoooo…
    Sib sol# sol re re#

    Momenti che ti lasciano un sorriso ancora in più…
    Re fa sib sib re fa sib sib sib do re do sib

    Ricordi…
    Sib do sib

    Bellissimi…
    Sib la fa fa

    Pensieri e sensazioni che ti dannooo…
    Re fa sib sib re fa sib sib sib do re do sib

    Ricordi…
    Sib do sib

    Adrenalina (basso)

    INTRO:

    |---------------------------| |----------------|
    |---------------------------| |----------------|
    |---------------------5-5-5-| |--------------5-|
    |-5-5-5--0-0-0--2-2-2-------| x7 |-5-5-5--7-7-7---|


    VERSO:

    [Cerco un'altrernativa ke..]

    |-----|-----|---------|-----|--------------|
    |-----|-----|---------|-----|--------------|
    |-----|-----|---------|-----|--------5-5-5-|
    |-5-5-|-2-2-|-0-0-0-0-|-5-5-|-7-7-7--------|

    |---------------------------|
    |---------------------------|
    |---------------------5-5-5-|
    |-5-5-5--0-0-0--2-2-2-------| x2

    [Mai nessuno capirà..]

    |---|---|---|-------------------|---------------------------------|
    |---|---|---|-------------------|---------------------------------|
    |---|---|---|-------------------|------------5-5-5-5-5--7-7-7-7-7-|
    |-5-|-2-|-0-|-5-5-(tante volte)-|-7-7-7-7-7-----------------------|

    [E vaaa..]

    |--------------------------------|---------------------------------|
    |--------------------------------|---------------------------------|
    |--------------------------------|-----------------------7-7-7-7-7-|
    |-5-5-5-5-5--2-2-2-2-2-0-0-0-0-0-|-5-5-5-5-5--0-0-0-0-0------------|


    RITORNELLO:

    [Io nn riesco a capire]

    |---|---|---|---|---|
    |---|---|---|---|---|
    |---|-5-|---|-9-|-7-|
    |-5-|---|-2-|---|---|


    INTRO:

    |---------------------------| |----------------|
    |---------------------------| |----------------|
    |---------------------5-5-5-| |--------------5-|
    |-5-5-5--0-0-0--2-2-2-------| x3 |-5-5-5--7-7-7---|


    VERSE:

    [Prima o poi..]

    |----------|-----|---------|----------|
    |----------|-----|---------|----------|
    |----------|-----|---------|----------|
    |-5-5--5-5-|-2-2-|-0-0--0-0|-5-5--5-5-|

    |---------------------------------|
    |---------------------------------|
    |------------5-5-5-5-5--7-7-7-7-7-|
    |-7-7-7-7-7-----------------------|

    [E vaa...]

    |--------------------------------| |----------------------|
    |--------------------------------| |----------------------|
    |--------------------------------| |-7-7-7-7-7--9-9-9-9-9-|
    |-5-5-5-5-5--2-2-2-2-2-0-0-0-0-0-| x2 |----------------------|


    RITORNELLO:

    [Io nn riesco a capire]

    |---|---|---|---|---|
    |---|---|---|---|---|
    |---|-5-|---|-9-|-7-|
    |-5-|---|-2-|---|---|


    INTERLUDE:

    SOLO CHITARRA


    INTRO:

    |---------------------------| |-----------------------------------|
    |---------------------------| |-----------------------------------|
    |---------------------5-5-5-| |--------------5-5-5-5-5--7-7-7-7-7-|
    |-5-5-5--0-0-0--2-2-2-------| x3 |-5-5-5--7-7-7----------------------|


    RITORNELLO:

    [Io nn riesco a capire] END:

    |---|---|---|---|---| |---|
    |---|---|---|---|---| |---|
    |---|-5-|---|-9-|-7-| |---|
    |-5-|---|-2-|---|---| |-5-|

  7. #7
    FINLEY & T-SURFER MOD


    Data Registrazione
    Apr 2007
    Messaggi
    831
    Inserzioni Blog
    18

    Predefinito Re: Spartiti e tablature dei Finley

    Domani (per basso)

    INTRO:

    |------------|------------|---|
    |------------|------------|---|
    |----4-----5-|----4-----5-|---|
    |-5-----2----|-5-----2----|-5-|


    VERSO:

    [Leggere i saluti..] [Ma stasera non c'è...]
    [Dopo C'e SOLO la chitarra..]

    |---------------------| |---|---|---|---|
    |---------------------| |---|---|---|---|
    |---------------------| |---|---|-5-|---|
    |-5--5-4--4-2--2-0--7-| |-2-|-0-|---|-5-|


    RITORNELLO: PRE VERSO:

    [Domani ripartiròòòò...]

    |------------|------------| |------------|---|
    |------------|------------| |------------|---|
    |----4-----5-|----4-----5-| |----4-----5-|---|
    |-5-----2----|-5-----2----| |-5-----2----|-5-|


    VERSO:

    [Forse a volte..] [Ma nn chiedo il xkè..]
    [Come sopra..]

    |------------------| |---|---|---|---| ---|---|---|---|
    |------------------| |---|---|---|---| ---|---|---|---|
    |------------------| |---|---|-5-|---| ---|---|-5-|---|
    |-9--5--7--5--7--0-| |-2-|-0-|---|-5-| -2-|-0-|---|-5-|


    RITORNELLO:
    [Domani ripartiròòòò...]

    |------------|------------|
    |------------|------------|
    |----4-----5-|----4-----5-|
    |-5-----2----|-5-----2----|


    INTERLUDE:
    |---------------|--------------|----------------------|
    |---------------|--------------|----------------------|
    |---------------|--------------|----------------------|
    |-5-/-12--12/-5-|-4--2--0--7-5-|-5/12--12-/5--4--2--0-|


    |---|---|---|---| |---|---|
    |---|---|---|---| |---|---|
    |---|---|-5-|---| |---|---|
    |-2-|-0-|---|-5-| x3 |-2-|-0-|



    RITORNELLO: FINE:

    [Domani ripartiròòòò...]

    |------------|------------|-------------|---|
    |------------|------------|-------------|---|
    |----4-----5-|----4-----5-|-----4-----5-|---|
    |-5-----2----|-5-----2----|-5------2----|-5-|

    Scegli me/In my arms again (basso)
    Verse 1

    G|-----------------------------------------------------|
    D|-----------------------------------------------------|
    A|--11----11--10--8----8--6--4----4--8--6----6--10--11-| x2
    E|-----------------------------------------------------|


    chorus
    G|-----------------------------------------------------------|
    D|-----------------------------------------------------------|
    A|------------------------------44444444444444--666666666666-| x2
    E|--444444444444--111111111111-------------------------------|

    G|---------------------------------|
    D|---------------------------------|
    A|---------------------------------|
    E|--444444444444--111111111111--11-|


    Verse 2

    G|--------------------------------------------------|
    D|--------------------------------------------------|
    A|--11--10--8----8--6--4----4--8--6----6--10--11----| x1
    E|--------------------------------------------------|


    chorus

    G|-----------------------------------------------------------|
    D|-----------------------------------------------------------|
    A|------------------------------44444444444444--666666666666-| x1
    E|--444444444444--111111111111-------------------------------|



    G|---------------------------------|
    D|---------------------------------|
    A|---------------------------------|
    E|--444444444444--111111111111--11-|


    Bridge

    G|--------------/13-12------------------------------------------|
    D|------/13-11----------13-10--131313--11-10--------------------|
    A|--------------------------------------------11-/1313-11--13---|
    E|--------------------------------------------------------------|

    G|--/13-15-17-15-15-13-13-12-12-13-----|
    D|-------------------------------------|
    A|-------------------------------------|
    E|-------------------------------------|

    ("....I could have been more concrete...") 2:25
    G|-----------------------------------------------------------------------|
    D|-----------------------------------------------------------------------|
    A|-------------------4444444444444444------------------66666666666-7777--|x1
    E|--1111111111111111------------------4444444444444444-------------------|

    G|-----------------------------------------------------------------------|
    D|-----------------------------------------------------------------------|
    A|-------------------4444444444444444------------------66666666666-7777--|x2
    E|--1111111111111111------------------4444444444444444-------------------|



    G|-----------------------------------------------------------|
    D|-----------------------------------------------------------|
    A|------------------------------44444444444444--666666666666-|
    E|--444444444444--111111111111-------------------------------|

    G|-------|
    D|-------|
    A|-------|
    E|--4----|

    Questo sono io/All I've got (basso)
    Intro

    G|--------------------------|
    D|--------------------------|
    A|------5-5-------3-3-3-3-3-| x2
    E|-3-3-------0-0------------|


    verse 1

    G|--------------------------|
    D|--------------------------|
    A|------5-5-------3-3-3-3-3-| x2
    E|-3-3-------0-0------------|


    Pre chorus

    G|------------------------------------|
    D|------------------------------------|
    A|--------33333---------55555--66666--|
    E|-00000---------33333----------------|

    G|------------------------------|
    D|------------------------------|
    A|--------33333--5-5-5-5--33-33-|
    E|-00000------------------------|


    Chorus

    G|------------------------------------------|
    D|------------------------------------------|
    A|-----------555555555------------333333333-| x4
    E|-33333333-------------00000000------------|


    Intro 2

    G|--------------------------|
    D|--------------------------|
    A|------5-5-------3-3-3-3-3-|
    E|-3-3-------0-0------------|

    verse 1

    G|--------------------------|
    D|--------------------------|
    A|------5-5-------3-3-3-3-3-| x2
    E|-3-3-------0-0------------|

    Pre chorus

    G|------------------------------------|
    D|------------------------------------|
    A|--------33333---------55555--66666--|
    E|-00000---------33333----------------|

    G|------------------------------|
    D|------------------------------|
    A|--------33333--5-5-5-5--33-33-|
    E|-00000------------------------|


    Chorus

    G|----------------------------------------|
    D|----------------------------------------|
    A|-----------55555555------------33333333-| x4
    E|-33333333------------00000000-----------|



    Bridge

    G|---------------------------------------------------------------------|
    D|---------------------------------------------------------------------|
    A|-----------------33333333333333------------------55555555--66666666--|
    E|-00000000000000------------------33333333333333----------------------|




    chorus

    G|------------------------|
    D|------------------------|
    A|------5-5-------3-3-3-3-|
    E|-3-3-------0-0----------|


    G|----------------------------------------|
    D|----------------------------------------|
    A|-----------55555555------------33333333-| x3
    E|-33333333------------00000000-----------|


    G|---------------------|
    D|---------------------|
    A|---------------------|
    E|--3-3----------------|

  8. #8
    FINLEY & T-SURFER MOD


    Data Registrazione
    Apr 2007
    Messaggi
    831
    Inserzioni Blog
    18

    Predefinito Re: Spartiti e tablature dei Finley

    Sirene/Siren (basso)

    intro

    G|---------------------|
    D|---------------------|
    A|-6-------------------|
    E|---------------------|

    G|---------------------|
    D|---------------------|
    A|-666666--2222--1--2--|
    E|---------------------|

    G|---------------------|
    D|---------------------|
    A|-666666--2222--1-2-4-|
    E|---------------------|

    G|---------------------|
    D|---------------------|
    A|-666666--2222--1--2--|
    E|---------------------|

    G|---------------------|
    D|---------------------|
    A|-666666--2-----------|
    E|---------------------|

    verse 1

    G|------------------------------|
    D|--------------------------4---|
    A|--6--6--2--2--6--6--2--1------| x2
    E|------------------------------|


    pre chorus

    G|-----------------------------------------|
    D|--------------------------------4-3------|
    A|--66666666--22222222--44444444------4----|
    E|-----------------------------------------|

    G|-----------------------------------------|
    D|--------------------------------4--------|
    A|--66666666--22222222--44444444-----------|
    E|-----------------------------------------|

    chorus

    G|--------------------|
    D|--------------------|
    A|-6--2-2-----4-4-----| x2
    E|---------2----------|


    G|---------------------------------|
    D|---------------------------------|
    A|-666666--222222----------4444444-|
    E|-----------------222222----------|

    G|------------------/3-3--1-----|
    D|---------4444444--------------|
    A|-666666-----------------------|
    E|------------------------------|



    intro 2

    G|---------------------|
    D|---------------------|
    A|-666666--2222--1--2--|
    E|---------------------|

    G|---------------------|
    D|---------------------|
    A|-666666--2222--1-2-4-|
    E|---------------------|

    G|---------------------|
    D|---------------------|
    A|-666666--2222--1--2--|
    E|---------------------|

    G|---------------------|
    D|---------------------|
    A|-666666--2-----------|
    E|---------------------|


    G|-----/6--3-----------|
    D|--4------------------|
    A|---------------------|
    E|---------------------|



    verse 1

    with slap


    G|--------------------------------------------|
    D|-------------9-x-9-x-9x--------------4-x--6-|
    A|--6-x-6-x-6-------------6-x-6-x-6-----------|
    E|--------------------------------------------|


    pre chorus

    G|-----------------------------------------|
    D|--------------------------------4-3------|
    A|--66666666--22222222--44444444------4----|
    E|-----------------------------------------|

    G|-----------------------------------------|
    D|--------------------------------4--------|
    A|--66666666--22222222--44444444-----------|
    E|-----------------------------------------|

    chorus

    G|--------------------|
    D|--------------------|
    A|-6--2-2-----4-4-----| x2
    E|---------2----------|


    G|------------------33333--11---|
    D|---------4444444--------------|
    A|-666666-----------------------|
    E|------------------------------|

    G|------------------3-3---1-----|
    D|---------4444444--------------|
    A|-666666-----------------------|
    E|------------------------------|


    Bridge

    G|------------------------|
    D|-1----------------------|
    A|----1-2-----------------| x4
    E|------------------------|

    G|---------------------|
    D|-1-1-1---------------|
    A|--------2-2-2--------| x2
    E|---------------------|

    G|------------------------|
    D|-11111111---------------|
    A|-----------22222222-----| x2
    E|------------------------|


    chorus

    G|--------------------|
    D|--------------------|
    A|-6--2-2-----4-4-----| x2
    E|---------2----------|

    G|------------------33333--11---|
    D|---------4444444--------------|
    A|-666666-----------------------|
    E|------------------------------|

    G|------------------3-3---1-----|
    D|---------4444444--------------|
    A|-666666-----------------------|
    E|------------------------------|


    G|-----------------------------------------|
    D|--------------------------------4-3------|
    A|--66666666--22222222--44444444------4----|
    E|-----------------------------------------|

    G|-----------------------------------------|
    D|--------------------------------44--44---|
    A|--66666666--22222222--44444444-----------|
    E|-----------------------------------------|

    Scegli me/In my arms again (chitarra)
    e|--------------------------------------6---------|
    B|----------9------9-----9----------9----------------|
    G|-------8------8-----8----------8-------------------|
    D|----6-----------------------6--------------------|
    A|-----------------------------------------------|
    E|-----------------------------------------------|


    e|-----------------------------------------------|
    B|---------9-----9-----9------9----9----9--------------|
    G|------8-----8-----8-------8---8----8-----------------|
    D|---6--------------------6------------------------|
    A|-----------------------------------------------|
    E|-----------------------------------------------|

    e|-----------------------------------------------|
    B|--------9----9----9------9----9---9------------------|
    G|-----8----8----8-------8----8---8--------------------|
    D|-----------------------------------------------|
    A|--8------------------8---------------------------|
    E|-----------------------------------------------|


    e|-----------------------------------------------|
    B|-------9---9---9------9---9---9----------------------|
    G|-----8---8---8------8---8---8------------------------|
    D|-----------------------------------------------|
    A|-----------------------------------------------|
    E|---9--------------9------------------------------|

    e|-----------------------------------------------|
    B|--------9---9---9------9---9---9---------------------|
    G|------8---8---8------8---8---8-----------------------|
    D|-----------------------------------------------|
    A|----6--------------6-----------------------------|
    E|-----------------------------------------------|

    e|-----------------------------------------------|
    B|----9----------9-----------9----------9-----------|
    G|----8--x10----8---x10-----8----x10---8--x10-------------|
    D|----6-------------------------------------------|
    A|---------------8----------------------6---------|
    E|----------------------------9-------------------|

    tu dal cielo un angelo...

    e|-------------------------------------------|
    B|----------------------------------------------|
    G|----------6-----------8---------------------|
    D|---3------6-----6-----8---------------------------|
    A|---3------4-----6-----6--------------------------|
    E|---1------------4-------------------------------|

  9. #9
    FINLEY & T-SURFER MOD


    Data Registrazione
    Apr 2007
    Messaggi
    831
    Inserzioni Blog
    18

    Predefinito Re: Spartiti e tablature dei Finley

    Ricordi (chitarra, semplificata); Grazie a Danyluccio

    [Qui è solo pianoforte]
    sarà il tempo a dire che
    stai benissimo così
    certi sbagli fanno crescere,
    [non fanno male]
    Pochi giorni e tutto tornerà
    [normale]
    ma non svaniranno mai
    resteranno sempre i tuoi
    ricordi
    di un anno
    momenti che ti lasciano
    un sorriso
    ricordi...
    Le risate tra di noi
    Mille discussioni e istanti di folliaaAa| svaniranno mai| resterann…| i tuoi..|
    e|------------------------------------5----------------------1------------5-----------------------1--------------------------------|
    B|------------------------------------5----------------------1------------5-----------------------1--------------------------------|
    G|------------------------------------5----------------------1-----------5----------------------- 1--------------------------------|
    D|------------------------------------7----------------------3-----------7------------------------3--------------------------------|
    A|------------------------------------7----------------------3-----------7------------------------3--------------------------------|
    E|------------------------------------5----------------------1-----------5------------------------1---------------------------------|
    soltanto tuoi| ricor..| di un ann..| moment..| sorriso ancor..| in più|
    e|--------------------3------------------------1---------------8----------------3-----------------3------------------------|
    B|--------------------3------------------------1---------------8----------------3-----------------3-------------------------|
    G|--------------------5------------------------1--------------10---------------5-----------------3-------------------------|
    D|--------------------5------------------------3--------------10---------------5------------------5------------------------|
    A|--------------------3------------------------3---------------8----------------3------------------5------------------------|
    E|--------------------3------------------------1---------------8----------------3------------------3------------------------|

    ricordi…| bellissimi..| pensieri e..| ti dann..| ..nooo|
    e|--------------------3------------------------1---------------------8----------------3-----------------3-----------------------|
    B|--------------------3------------------------1---------------------8----------------3-----------------3------------------------|
    G|--------------------5------------------------1--------------------10---------------5-----------------3-------------------------|
    D|--------------------5------------------------3--------------------10---------------5------------------5------------------------|
    A|--------------------3------------------------3--------------------8----------------3------------------5--------------------------|
    E|--------------------3------------------------1---------------------8----------------3------------------3--------------------------|

    ricordi..(assolo)
    e|---------------15------15--------15-------15-----15---13---12-----12----13---12---15-------12----13---12---15----| B|---------13-------13-------13--------13----------------------------------------------------------------------------------------|
    G|------------------------------------------------------------------------------------------------------------------------------------|
    D|------------------------------------------------------------------------------------------------------------------------------------|
    A|------------------------------------------------------------------------------------------------------------------------------------|
    E|------------------------------------------------------------------------------------------------------------------------------------|


    E|----15---13---12----------------15--------15--------15-----------15----15----13----12--12---10----13--12----8---|
    B|------------------------------13--------13--------13----------13--------------------------------------------------------------| G|-----------------------------------------------------------------------------------------------------------------------------------| D|-----------------------------------------------------------------------------------------------------------------------------------| A|-----------------------------------------------------------------------------------------------------------------------------------| E|------------------------------------------------------------------------------------------------------------------------------------|
    Ricordi…| di un ann..| momenti che..| sorriso..| in più…|
    e|--------------------3------------------------1---------------------8-------------------3---------------------3---------------|
    B|--------------------3------------------------1---------------------8-------------------3---------------------3---------------|
    G|--------------------5------------------------1--------------------10------------------5---------------------3---------------|
    D|--------------------5------------------------3--------------------10-----------------5----------------------5--------------|
    A|--------------------3------------------------3--------------------8------------------3-----------------------5--------------|
    E|--------------------3------------------------1---------------------8------------------3----------------------3---------------|

    ricordi…| bellissimi…| pensieri e..| ti dan…| ..noooo|
    e|--------------------3------------------------1---------------------8----------------3-----------------3---------------|
    B|--------------------3------------------------1---------------------8----------------3-----------------3---------------|
    G|--------------------5------------------------1--------------------10---------------5-----------------3---------------|
    D|--------------------5------------------------3--------------------10---------------5------------------5--------------|
    A|--------------------3------------------------3--------------------8----------------3------------------5---------------|
    E|--------------------3------------------------1---------------------8----------------3------------------3--------------|

    ricordi…|
    e|--------------------3------------------------| (qui riattacca il pianoforte)
    B|--------------------3------------------------|
    G|--------------------5------------------------|
    D|--------------------5------------------------|
    A|--------------------3------------------------|
    E|--------------------3------------------------|

    Domani (intro per chitarra)
    Ecco l'intro di domani...

    1-guitar
    e|--0---------------0-----------------0-------------0---------------|
    B|----2-2-3-2---------2-2-3-2----------2-2-3-2-------2-2-3-2-----|
    G|------------2-4--------------2-4--------------2-4------------7-6---|
    D|------------------------------------------------------------------|
    A|----------------------------------------------------------------|
    E|------------------------------------------------------------------|

    2-guitar
    e|-----------------------------------------------|
    B|-----------------------------------------------|
    G|-----------6-------------7-----------------------|
    D|----7------6-----4-------7-------------------------|
    A|----7------4-----4-------5-------------------------|
    E|----5------------2-------------------------------|

    Lies are all around me (chitarra)

    Lies are all around me...
    Intro:
    e|---------9-------------------------------|
    b|-------10----10-----------------------------|
    g|-----9----------------------------------|
    d|----------------------------------------|
    a|---------------------------------------|
    E|----------------------------------------|

    e|----------------------------------------|
    b|--10----10-----10--10----10---------------|
    g|-----9------9----------9------9-----------| X2
    d|----------------------------------------|
    a|---------------------------------------|
    E|----------------------------------------|

    e|----------------------------------------|
    b|--------------------------------------|
    g|---------------------------------------|
    d|-----7-----------4-----------2-------------|
    a|-----7-----------4-----------2------------|
    E|-----5-----------2-----------0-------------|

    us you....lies are all around all around all around me...

    e|----------------------------------------|
    b|--------------------------------------|
    g|---------------------7------------------|
    d|-----4-------2-------7--------------------|
    a|-----4-------2-------5-------------------|
    E|-----2-------0---------------------------|

    e|----------------------------------------|
    b|--------------------------------------|
    g|--------------------------------------|
    d|-------7-----5------6------7--------------|
    a|-------7-----5------6------7--------------|
    E|-------5-----3------4------5--------------|

    La mia notte, tabulature by danyluccio e scriccy
    http://i43.tinypic.com/5kr034.jpg

    Gruppo randa (assolo) by danyluccio

  10. #10
    FINLEY & T-SURFER MOD


    Data Registrazione
    Apr 2007
    Messaggi
    831
    Inserzioni Blog
    18

    Predefinito Re: Spartiti e tablature dei Finley

    Se cambia il vento (chitarra) by SaRa93Ka

    Intro: Do | Do | Sol | Sol x2

    Do Do Sol
    Tutto ciò che ho
    Sol Mim
    lo tengo stretto forte fino all’ultimo
    Mim Do
    perchè ogni cosa bella brucia sempre troppo presto
    Do Sol
    e spero che non accada a me.
    Re Do Sol
    Quello che non ho
    Sol Mim
    fiducia nella gente neanche un briciolo
    Mim
    Non riesco a prender sonno
    Do Do
    e con lo sguardo sul soffitto
    Sol
    cerco qualche certezza in più.

    Sol Do
    Poi salgo in macchina e ci penso
    Sol Sol
    e più ci penso e più ho paura
    Do Do
    e se domani cambia il vento
    Sol Sol
    che farò?!?

    Do Do Sol
    Tutto ciò che ho
    Sol Mim
    due fogli una canzone sopra un tavolo
    Mim
    i miei che ancora si amano
    Do
    e poi ci sei tu
    Do Sol Sol
    per fortuna che ci sei tu.

    Do Do
    Poi salgo in macchina e ci penso
    Sol Sol
    e più ci penso e più ho paura
    Do Do
    e se domani cambia il vento
    Sol Sol
    che farò?!?
    Do Do
    e farò in modo che al risveglio
    Sol Sol
    non ti ritrovi il mondo addosso
    Do Do Sol Sol
    ma se per caso cambia il vento che farò?

    Assolo: Do | Do | Sol | Sol x2

    Do Do
    Poi salgo in macchina e ci penso
    Sol Sol
    e più ci penso e più ho paura
    Do Do Sol Sol
    e se domani cambia il vento che farò?
    Do Do
    E non importa se al risveglio
    Sol Sol
    ci ritroviamo il mondo addosso
    Do Do
    perchè potrà cambiare il vento
    Sol
    ma noi no
    Sol Do
    ma noi no

    sopra a questa chitarra se ne sovrappone un'altra in alcuni punti, che fa questi arpeggi:

    "...tutto ciò che HO..."

    |-----2-3-2-----|--2-3-2----|--2-3-2----|--2-3-2----|
    |------------2--|---------2--|--------2--|--------2--|
    |---------------|------------|-----------|-----------|
    |---------------|------------|-----------|-----------|
    |---------------|------------|-----------|-----------|
    |---------------|------------|-----------|-----------|
    Sol Sol Mim Mim

    |------2-3--|-----2-3--|--------------|
    |---5-------|---5------|---3----3--1--|
    |-----------|----------|---------------|
    |-----------|----------|---------------|
    |-----------|----------|---------------|
    |-----------|----------|---------------|
    Do Do Sol Re Do

    "...Quello che non HO..."

    |-----2-3-2-----|--2-3-2----|--2-3-2----|--2-3-2----|
    |-----0------2--|--0------2--|-0-----2---|--0-----2--|
    |---------------|------------|-----------|-----------|
    |---------------|------------|-----------|-----------|
    |---------------|------------|-----------|-----------|
    |---------------|------------|-----------|-----------|
    Sol Sol Mim Mim

    |------2-3--|-----2-3--|------|
    |---5-------|---5------|---3--|
    |-----------|----------|-------|
    |-----------|----------|-------|
    |-----------|----------|-------|
    |-----------|----------|-------|
    Do Do Sol

    Assolo:

    |--------------------------------------------|
    |--------------------------------------------|
    |-------4-4-4-5-4-------4-4-4-5-4-----2-0--|
    |-------------------5---------------5--------|
    |--------------------------------------------|
    |--------------------------------------------| x2

    Le ragazze vogliono qualcosa in più (chitarra):
    MEGAUPLOAD - The leading online storage and file delivery service

    Il tempo di un minuto (chitarra)
    guitar pro: Il tempo di un minuto tabs
    PDF:Il tempo di un minuto tabs

    Il tempo di un minuto (chitarra) by Sara300
    Il tempo è in 6/8, alcuni accordi valgono la metà. In questa canzone la sesta corda della chitarra è accordata in RE.

    L'introduzione è un arpeggio sugli accordi di SI- e LA.


    -------------------------2----------------------------------0-------
    ---2--3--2----------------------2--3--2----------------------------
    ----------------4-----4-------------------------2------2------------
    -------------------4--------------------------------2---------------
    ----------------2-------------------------------0-------------------
    --------------------------------------------------------------------
    SI- LA (prima parte SI- si cambia dopo il secondo 2-3-2 in LA)


    EDIT.



    D G Bm A G
    Nel silenzio di una stanza ascolterò quel ticchettio di un orologio stanco ormai

    D G Bm A G
    di scandire solo i giorni, le ore, gli attimi che inesorabilmente ci dividono

    Bm G
    come fai a non piangere per me

    D A G A
    come fai a non ridere di me come fai...

    Rit:
    D A
    il tempo di un minuto per sapere chi sei
    Bm G A
    il tempo di un minuto per dimenticare
    D A
    il tempo di un minuto per spiegarti che poi..
    Bm G A
    mi devi tutto il tempo che ho perso con te....



    Nel silenzio tra un secondo e l'altro io vivrò
    nell'ansia dell'attesa di un miracolo
    salvami ti prego
    salvami da questa trappola
    che gira intorno e non si ferma mai..
    che gira intorno e non si ferma mai..
    come fai a non piangere per me
    come fai a non ridere di me
    come fai...

    Rit:
    il tempo di un minuto per sapere chi sei
    il tempo di un minuto per dimenticare
    il tempo di un minuto per spiegarti che poi.. mi devi tutto il tempo che ho perso soltanto con te
    solo con te

    Rit:
    ooohhh

    il tempo di un minuto per
    sapere chi sei
    il tempo di un minuto per dimenticare
    il tempo di un minuto per spiegarti che poi
    il tempo di un minuto per dirti che

Pagina 1 di 3 123 UltimaUltima

Segnalibri

Segnalibri

Permessi di Scrittura

  • Tu non puoi inviare nuove discussioni
  • Tu non puoi inviare risposte
  • Tu non puoi inviare allegati
  • Tu non puoi modificare i tuoi messaggi
  •